Forum A Batlik Index du Forum Forum A Batlik
plus qu'un forum... un...bon forum!

http://www.abrulepourpoint.com/ - http://www.myspace.com/batlik


 
 FAQFAQ   RechercherRechercher   MembresMembres   GroupesGroupes   S’enregistrerS’enregistrer 
 ProfilProfil   Se connecter pour vérifier ses messages privésSe connecter pour vérifier ses messages privés   ConnexionConnexion 

Tabs Batlik

Poster un nouveau sujet Répondre au sujet Forum A Batlik Index du Forum -> DISCOGRAPHIE -> Tabs
Sujet précédent :: Sujet suivant
Auteur Message
Julioketou


Hors ligne

Inscrit le: 05 Fév 2013
Messages: 1
Localisation: Aubagne

MessagePosté le: 05/02/2013 14:08:22 Sujet du message: Tabs Batlik Répondre en citant

Hello tout le monde !

Pour les mordus de Batlik, voici quelques Tabs retrouvées à l'oreille pour vos soirées musicales !

Si vous en voulez d'autres n'hésitez pas à demander je verrais ce que je peux faire !


Naissance de la poésie :

Bb ou Sib (6-8-8-7-6-6)
Accord spécial (2-x-4-2-3-x) A jouer en pompé.
Gm ou Solm (3-5-5-3-3-3)
F7 ou Fa7 (1-3-1-2-1-1)

Blousons blancs :

-------5----5---------6-5---------------5--------5--------5-----
-------6----6--------------8-6-5--------6--------6--------5-----
-------7----7----------------------------7--------7--------6------ Bis puis enchainement de Dm-A ou Rém-La
-------------------------------------------------------------7-----
----5------------7-------------------5----------------7----7-----7
----------5-----------------------------------5-------------5-----

657 kilomètres :

Dm ou Rém
F ou FA
G ou Sol
Dm ou Rém

A jouer en boucle à rythme un peu pompé. En barré.

Remède :

Dm ou Rém
Gm ou Solm
Bb ou Sib (6-8-8-7-6-6)
A ou La

A jouer en boucle à rythme un peu pompé. En barré.

Sage renoncement :

Même accords que Remède !

99 pas :

Normalement jouée avec une guitare ténor mais transposé.

--------------------------------------------------------------------
------2--------------------------------0--------------2------------
--------------------------------------------------------------------
------------------------3-------------------------------------------
---0-----0-0-3-2----------------0------------3-2-0----0-0-0-0-- A jouer en boucle !
--------------------1-----1-1-1----3----3-3-----------------------


Comme le coyote :

Am ou Lam. Non barré.
C ou Do . Non barré.
F ou Fa.
E ou MI. Non barré.


En boucle jusqu'au refrain :

Am ou Lam. Non barré.
E ou MI. Non barré.
C ou Do . Non barré.
D ou Ré. Non barré.
F ou Fa.
C ou Do . Non barré.
E ou MI. Non barré.

L'art des choix :

Em ou Mim. En barré.
Bm ou Sim. (7-9-9-7-7-7)
D ou Ré. En barré.
A ou La. En barré.
C ou Do. En barré.
G ou Sol. En barré.
Puis Ré ou D en barré come ceci :

----------------
-------7--------
---------7---7-
-----------7----7 Avant de repartir sur la suite d'accords.
----5-----------
-----------------

Le mal est fait :

E ou MI. En barré
B ou Si . (7-9-9-8-7-7)
Jouer avec les basses pour reproduire la contrebasse.

Refrain :

G# ou Sol# En barré
A ou La en barré
E ou MI. En barré
B ou Si . (7-9-9-8-7-7)
E ou MI. En barré


Voilà ! Bonne gratte à tous.

Jules Petin.
Revenir en haut
Publicité






MessagePosté le: 05/02/2013 14:08:22 Sujet du message: Publicité

PublicitéSupprimer les publicités ?
Revenir en haut
Traum


Hors ligne

Inscrit le: 22 Mar 2014
Messages: 3
Localisation: Nord

MessagePosté le: 22/03/2014 14:43:16 Sujet du message: Tabs Batlik Répondre en citant

Pour 657 kilomètres (« La place de l'autre ») j'ai demandé à Batlik en personne l'accordage et trouvé en le regardant joué hier soir la tab, la voici : (et au passage il est super sympa, merci Stéphane Smile )

Accordage DADDAD

Il y a 4 accords :
[--0------3------0------0-----ll
[--7------3------5------0-----ll
[--0------0------0------0-----ll
[--0------0------0------0-----ll
[--5------0------3------0-----ll
[--0------3------0------0-----ll

Et entre ces 4 accords joué en boucle en espèce de picking (écoutez le morceau) on joue un peu les cordes à vide. C'est pas trop dur à trouver une fois que vous avez déjà l'accordage et les accords Wink
Pour le jouer à deux, la guitare solo que joue Thomas Pitiot est facile à trouver.

Sur ce même accordage on peut aussi jouer « Distinctement » (« La place de l'autre » aussi):

[--0------0------0------0-----ll
[--0------0------0------0-----ll
[--0------0------0------0-----ll
[--0------0------0------0-----ll
[--0------0------0------0-----ll
[--0------8------10-----0-----ll

On joue la corde de mi grave avec le pouce et on gratte les autres ensuite en boucle...

Et voilà Smile

Ciao
_________________
Je cherche activement une aide pour trouver l'accordage de « Tentatives ratées » et ses accord :)
Revenir en haut
bhamard


Hors ligne

Inscrit le: 24 Mai 2014
Messages: 1

MessagePosté le: 24/05/2014 23:39:34 Sujet du message: tentatives ratées Répondre en citant

Salut Traum,

je pense que l'accordage de "Tentatives ratées" est en DO. Essaie avec CGCCGC.


Les 4 accords (à confirmer mais ça sonne déjà pas mal je pense)

[--0------3------10------15-----ll
[--5------3------10------15-----ll
[--0------0------0-------15-----ll
[--0------0------0---------------ll
[--5------0------0---------------ll
[--0------3------10--------------ll

Après il y a plusieurs façons de jouer les mêmes accords et plutôt facile à trouver. Tu me diras ce que tu en penses.

Allez on s'accorde!
Revenir en haut
Traum


Hors ligne

Inscrit le: 22 Mar 2014
Messages: 3
Localisation: Nord

MessagePosté le: 25/07/2014 15:00:54 Sujet du message: Tabs Batlik Répondre en citant

Merci bhamard, j'essaie ça de suite ! J'avais pas vu la réponse depuis le temps
_________________
Je cherche activement une aide pour trouver l'accordage de « Tentatives ratées » et ses accord :)
Revenir en haut
Traum


Hors ligne

Inscrit le: 22 Mar 2014
Messages: 3
Localisation: Nord

MessagePosté le: 25/07/2014 16:29:25 Sujet du message: Tabs Batlik Répondre en citant

J'ai trouvé quelque chose qui sonne mieux,

[-3---3---5---15--ll
[-5---3---3---15--ll
[-0---0---0---15--ll
[-0---0---0---0---ll
[-0---0---[3]-0---ll
[-[0]-[3]-0---[0]-ll

Entre crochet la basse à taper au début de chaque motif de picking/grattage
À la fin de chacun de ces motifs, pensez à relâcher, en commençant par la corde la plus aiguë, les deux dernières cordes afin de les faire sonner à vide (comme on l'entend bien sur le morceau)

Le refrain :

[-0---3---8---0--ll
[-5---3---8---5--ll
[-3---3---8---3--ll
[-0---3---8---0--ll
[------------------ll
[------------------ll

À jouer en picking léger basique, en relâchant les trois dernières cordes sur le quatrième accord pour faire sonner les cordes à vide
Pensez à bien écouter le morceau pour vous imprégner du rythme
Je conseille de le jouer au doigt, c'est plus joli
Batlik lui met des faux ongles pour pouvoir jouer avec ses doigts ! Et ça sonne super bien

Bon courage
Tom
_________________
Je cherche activement une aide pour trouver l'accordage de « Tentatives ratées » et ses accord :)
Revenir en haut
mides


Hors ligne

Inscrit le: 03 Avr 2017
Messages: 1

MessagePosté le: 03/04/2017 14:33:10 Sujet du message: les grandes plaines Répondre en citant

Bonjour,
Je recherche l'accordage et éventuellement les accords du morceau les grandes plaines comme sur le live Entre mille bévues.
Si quelqu'un peut m'aider ça serait super
merci Very Happy
Revenir en haut
Contenu Sponsorisé






MessagePosté le: 24/08/2017 03:19:31 Sujet du message: Tabs Batlik

Revenir en haut
Montrer les messages depuis:
Poster un nouveau sujet Répondre au sujet Forum A Batlik Index du Forum -> DISCOGRAPHIE -> Tabs Toutes les heures sont au format GMT + 2 Heures
Page 1 sur 1


Sauter vers:  

Index | Panneau d’administration | Créer un forum | Forum gratuit d’entraide | Annuaire des forums gratuits | Signaler une violation | Conditions générales d'utilisation
Powered by phpBB © 2001, 2017 phpBB Group
Traduction par : phpBB-fr.com