Forum A Batlik Index du Forum Forum A Batlik
plus qu'un forum... un...bon forum!

http://www.abrulepourpoint.com/ - http://www.myspace.com/batlik


 
 FAQFAQ   RechercherRechercher   MembresMembres   GroupesGroupes   S’enregistrerS’enregistrer 
 ProfilProfil   Se connecter pour vérifier ses messages privésSe connecter pour vérifier ses messages privés   ConnexionConnexion 

3ème Album : Juste à côté

Poster un nouveau sujet Répondre au sujet Forum A Batlik Index du Forum -> DISCOGRAPHIE -> Tabs
Sujet précédent :: Sujet suivant
Auteur Message
MamSelle_Bulle
Administrateur
Administrateur

Hors ligne

Inscrit le: 30 Avr 2006
Messages: 1 064
Localisation: Bourges (JM: Mais qu'es que tu as étais faire à Bourges? MOI: J'y suis née)

MessagePosté le: 05/07/2007 08:53:05 Sujet du message: 3ème Album : Juste à côté Répondre en citant

Information : Le sigle
indique qu'il existe une tablature pour ce morceau


Capo 6 :
Coulet : Am Em
Refrain : Am F Em
CAPO 1

Intro :

E||-1/0------------|---1/0---------|---1/0-------------|
B||-------1--------|-------1-0-----|---------0-1-0-----|
G||-----0----0--2--|----0-------2--|-------0--------2--|
D||----------------|---------0--x--|----------------2--|
A||-------------0--|------------0--|----------------0--|
E||----------------|---------------|-------------------|

Couplet :

Am Em C F Em Em
E||----x---x----x---x--1-x---x--0----------------------|
B||----x---x----x---x----x---x----x-2-x----------------|
G||----x---x----x---x----x---x----x---x----------------|
D||----x---x----x---x----x---x----x---x----------------|
A||--0-x---x--2-x-3-x----x---x----x---x----------------|
E||----------------------x---x----x---x----------------|

Refrain :
X2
Am Em C F7 C E7 F Em Em
E||----x---x---x---x-0-------0----------------------|
B||----x---x---x---x---x-2-x---x-2-x----------------|
G||----x---x---x---x---x---x---x---x----------------|
D||----x---x---x-3-x---x---x---x---x----------------|
A||--0-x-2-x-3-x---x---x---x---x---x----------------|
E||--------------------x---x---x---x----------------|
Capo 3 :
Couplet : Am F G
Refrain: Am G C

aucune tablature pour l'instant
Capo 2 :
A Bm D E
E-B-C#m-A-E-B
Bm F# x4
G Bm x4 F#

aucune tablature pour l'instant

Harmoniques:
E--------------------------------------
B-------------(12)-----------(7)------
G------------------(12)---------------
D--------------------------------------
A------------------------(7)-----------
E-------(7)----------------------------

Bm - Em

Avec un accordage : EBEGBe on aurait Bm (777777) et Em (000000) avec les harmoniques un peu différentes
e---------------------------------------------
B---------------------------------------------
G-----------------(12)-----------------------
E---------------------------------------------
B----------(5)---------------------(7)-------
E------(7)-----------------(5)---------------
Coulet : Am-C-F-E
Le refrain: Am (puis agrémenter d'une montée de basse: Am/B-Am/C)-Dm-F-C-E

aucune tablature pour l'instant



N'hésitez pas à poster ici vos tablatures du 3ème Album : Juste à côté
Revenir en haut
Visiter le site web du posteur
Publicité






MessagePosté le: 05/07/2007 08:53:05 Sujet du message: Publicité

PublicitéSupprimer les publicités ?
Revenir en haut
freddo


Hors ligne

Inscrit le: 16 Aoû 2006
Messages: 19
Localisation: Paname-La-Belle

MessagePosté le: 10/07/2007 09:10:29 Sujet du message: 3ème Album : Juste à côté Répondre en citant

Les gens et les évènements:


Ré bizarre (si quelqu'un a le nom, j'aurais l'air un peu moins con ^_^):

E---------0---------
B---------3----------
G---------0----------
D---------4----------
A---------5----------
E-------------------


intro et couplets:

Mim-Lam-puis glisser en Ré bizarre
Re----lever la--------------- tête

Mim Lam Ré
S'apercevoir que rien n'a changer
...


Refrain:

Mim Ré
Ce n'est pas le temps qui nous change
Sol Si7
Mais le temps et les évènements

Mim Si7
Qui nous rentrent dedans


Même suite d'accord pour le reste du refrain.


And so on.
Revenir en haut
Visiter le site web du posteur
Deck13
**
**

Hors ligne

Inscrit le: 26 Fév 2007
Messages: 266
Localisation: Orléans(45)

MessagePosté le: 10/07/2007 10:44:41 Sujet du message: 3ème Album : Juste à côté Répondre en citant

Encore et encore si c'est pas trop fort ... merci de te donner du mal pour nous faire partager ces instants musicaux ... Wink Very Happy
_________________


Revenir en haut
freddo


Hors ligne

Inscrit le: 16 Aoû 2006
Messages: 19
Localisation: Paname-La-Belle

MessagePosté le: 10/07/2007 14:17:12 Sujet du message: 3ème Album : Juste à côté Répondre en citant

C'est pas du mal, c'est le pied!
Et merci à vous d'"organiser" les partoches, c'est plus clair
Revenir en haut
Visiter le site web du posteur
Deck13
**
**

Hors ligne

Inscrit le: 26 Fév 2007
Messages: 266
Localisation: Orléans(45)

MessagePosté le: 10/07/2007 15:36:21 Sujet du message: 3ème Album : Juste à côté Répondre en citant

aller un dernier merci pour dire que si vous ne postiez pas de partoches, la rubrique n'existerait pas alors comme on dit chez moi :
"Un prêté pour un vomi ^^" Arrow

_________________


Revenir en haut
bib1dom


Hors ligne

Inscrit le: 30 Avr 2008
Messages: 3
Localisation: Bretagne

MessagePosté le: 30/04/2008 19:39:22 Sujet du message: dernier cri Répondre en citant

Salut
j'veiens d'arriver sur le forum...

Je cherche désespérément les tabs de dernier cri, chanson qui me suit tous les jours à tous les moments de la journée depuis 2 semaines...

Merci pour ceux qui ont l'oreille et la technique suffisante pour me dépanner...

Bib
Revenir en haut
MamSelle_Bulle
Administrateur
Administrateur

Hors ligne

Inscrit le: 30 Avr 2006
Messages: 1 064
Localisation: Bourges (JM: Mais qu'es que tu as étais faire à Bourges? MOI: J'y suis née)

MessagePosté le: 30/04/2008 20:01:20 Sujet du message: 3ème Album : Juste à côté Répondre en citant

Bienvenue à toi bib1dom.... Very Happy

Il manque pas mal de tabs ici... et encore pour cette album il est assez complet, pas de chanse c'est forcement celle que tu veux qu'on a pas !! Rolling Eyes Neutral
Le truc c'est que j'y connais encore malheureusement pas grand chose, du coup c'est un peu tout le monde qui y met son grain de sel... Patiente... Confused Confused
Revenir en haut
Visiter le site web du posteur
Deck13
**
**

Hors ligne

Inscrit le: 26 Fév 2007
Messages: 266
Localisation: Orléans(45)

MessagePosté le: 01/05/2008 11:39:14 Sujet du message: 3ème Album : Juste à côté Répondre en citant

Bienvenue à toi bib1dom, alors voilà quelques pistes vite fait, ça doit tourner autour de :

Capo 3:
Em - Am - G

Je crois qu'il utilise sa guitare à 4 cordes (tenor) avec un accordage "j'en sais rien" ???
Si quelqu'un a mieux ... je suis preneur et bib1dom aussi ^^ je pense ...
_________________


Revenir en haut
bib1dom


Hors ligne

Inscrit le: 30 Avr 2008
Messages: 3
Localisation: Bretagne

MessagePosté le: 01/05/2008 18:58:37 Sujet du message: merci... Répondre en citant

Merci...
C'est une base pour fouiller...
Revenir en haut
freddo


Hors ligne

Inscrit le: 16 Aoû 2006
Messages: 19
Localisation: Paname-La-Belle

MessagePosté le: 08/05/2008 22:05:10 Sujet du message: un dernier cri Répondre en citant

une base:


Une base de Sol mineur:



Pour l'intro à repeter aussi longtemps que nécessaire

e-----------------------------------------------------------------------
B-----------------------------------------------------------------------
G---------------3----------3-------------------------------------------
D-------------5---5------5--5-----------------------------------------
A-----------5-------5--5------5---------------------------------------
E---------3-----------5----------6---2--------------------------------


On stoppe l'arpège pour les paroles et on pince les cordes D et G ensemble:


e-----------------------------------------------------------------------
B-----------------------------------------------------------------------
G--------3---------3---------------------------------------------------
D--------5---------5---------------------------------------------------
A------5---------5-----------------------------------------------------
E----3---------5-------6-------2---------------------------------------


Le Lendemain...

Continuez jusqu'à:

Quelque chose qui fait...
A ce moment là n'allez pas jusqu'au -----2---- de la corde E
Remplacez le par un sol mineur classique et finissez par un Domineur puis Ré 7.





à "Et mes larmes gorgeront les rivières":


e-----------------------------------------------------------------------
B------------------------------------------------4--------4----------3----
G--------3---------3----------------------------5--------5----------5-----
D--------5---------5--------------------------5---5---5-----5----4---4-------
A------5---------5-------------5----------3---------3----------5-----------
E----3---------5-------6--------------------------------------------------5---


Répetez ça deux fois et finissez par un Sol mineur....



Vous savez tout.

Bon week end
Revenir en haut
Visiter le site web du posteur
freddo


Hors ligne

Inscrit le: 16 Aoû 2006
Messages: 19
Localisation: Paname-La-Belle

MessagePosté le: 15/05/2008 11:14:00 Sujet du message: précision Répondre en citant

Bonjour,
A propos de Le Nouveau Producteur

L'accordage est en EBEGBe

Ca ne facilite pas le jeu mais les harmoniques sont plus justes:

e---------------------------------------------
B---------------------------------------------
G-----------------(12)-----------------------
E---------------------------------------------
B----------(5)---------------------(7)-------
E------(7)-----------------(5)---------------


Ensuite, mêmes accords: Bm et Em

Bm: 777777
Em: 000000


facile non? (pour une fois)
Revenir en haut
Visiter le site web du posteur
Contenu Sponsorisé






MessagePosté le: 16/12/2017 11:07:10 Sujet du message: 3ème Album : Juste à côté

Revenir en haut
Montrer les messages depuis:
Poster un nouveau sujet Répondre au sujet Forum A Batlik Index du Forum -> DISCOGRAPHIE -> Tabs Toutes les heures sont au format GMT + 2 Heures
Page 1 sur 1


Sauter vers:  

Index | Panneau d’administration | Créer un forum | Forum gratuit d’entraide | Annuaire des forums gratuits | Signaler une violation | Conditions générales d'utilisation
Powered by phpBB © 2001, 2017 phpBB Group
Traduction par : phpBB-fr.com