Forum A Batlik Index du Forum Forum A Batlik
plus qu'un forum... un...bon forum!

http://www.abrulepourpoint.com/ - http://www.myspace.com/batlik


 
 FAQFAQ   RechercherRechercher   MembresMembres   GroupesGroupes   S’enregistrerS’enregistrer 
 ProfilProfil   Se connecter pour vérifier ses messages privésSe connecter pour vérifier ses messages privés   ConnexionConnexion 

2ème Album : Assis là

Poster un nouveau sujet Répondre au sujet Forum A Batlik Index du Forum -> DISCOGRAPHIE -> Tabs
Sujet précédent :: Sujet suivant
Auteur Message
MamSelle_Bulle
Administrateur
Administrateur

Hors ligne

Inscrit le: 30 Avr 2006
Messages: 1 064
Localisation: Bourges (JM: Mais qu'es que tu as étais faire à Bourges? MOI: J'y suis née)

MessagePosté le: 05/07/2007 08:51:57 Sujet du message: 2ème Album : Assis là Répondre en citant

Information : Le sigle
indique qu'il existe une tablature pour ce morceau


Em G D Em
Em G D D
G G/B D D
Em Em B7 B7
Capo 5 :
Lam-Fa-Mi
Capo 2 :
Coulet : Am-F-E
à "tout le monde nous regardait": C-G-Am-E
à "que depuis un mois": Dm- Am-B7-E
Capo 2 :
D-G-A
A-E
à "dans un vieux fauteuil" A-D-E
Couplet : Bm ,Bm/F#, Bm/G, Bm/E
Refrain : Bm, A, G, A
E Am
Couplet : Em-C
Refrain: Em-C-G-D
C#m Am
aucune tab disponible pour l'instant
aucune tab disponible pour l'instant
Capo 1 :
Em Am
D-A-Bm



N'hésitez pas à poster ici vos tablatures du 2nd Album : Assis là
Revenir en haut
Visiter le site web du posteur
Publicité






MessagePosté le: 05/07/2007 08:51:57 Sujet du message: Publicité

PublicitéSupprimer les publicités ?
Revenir en haut
Deck13
**
**

Hors ligne

Inscrit le: 26 Fév 2007
Messages: 266
Localisation: Orléans(45)

MessagePosté le: 12/01/2008 20:00:15 Sujet du message: 2ème Album : Assis là Répondre en citant

Alors dans une suite disons logique à ce que rem avait posté ici

Je me suis essayé à la tablature proprement dites ... alors je vous livre le résultat ... merci de votre clémence disons que ça fait à peine 2 ans que je joue de la gratte et que mon niveau en solfège est plus que ridicule ...

Les blousons Blancs : au format gp5
au format midi
au format pdf

J'ai protégé le téléchargement par mot de passe alors si ça vous interesse envoyez moi un mp et je vous filerai le mdp ^^
_________________


Revenir en haut
sh00wee


Hors ligne

Inscrit le: 25 Juil 2008
Messages: 2
Localisation: Toulouse

MessagePosté le: 08/08/2008 18:55:45 Sujet du message: 2ème Album : Assis là Répondre en citant

Salut à tous !

je dois dire que, depuis que j'ai découvert ce forum, je me suis réconcilié avec ma guitare... J'ai enfin pu gratouiller deux/trois chansons de Batlik que j'ai découvert en concert récemment et là... la GROSSE claque !

Bref tout ça pour dire que j'apporte moi aussi ma petite pierre à l'édifice et postant la tab pour "Son oeil gauche", qui est une de mes préférées sur cet album.

Couplet
G, G - Am
Em, Em

En arpèges :
e ------------3-----------------3-----------------3------------------------5---------
B ---------3----3-----------3-----3----------3------3-----------------5------5-----
G ------4----------------4----------------4-------------------------5-----------------
D --------------------------------------------------------------------------------------
A --------------------------------------------------------------------------------------
E ---3----------------3----------------3--------------------(3)/5---------------------

e ------------0-----------------0----------------0---------------------------------
B ---------0----0-----------0-----0----------0-----0------------------------------
G ------0----------------0----------------0----------------------------------------
D ----------------------------------------------------------------------------------
A --------------------------------------------------------------2---3----5---------
E ---0----------------0----------------0-------------------------------------------


Refrain
Toujours en arpèges
C x32010
Dsus4add9 x54030 (position de Do glissée de deux cases)

C
Tellement ce qu’on allait faire ensemble
C
M’a semblé plus important
Dsus4add9
Que tout ce qu’elle avait bien pu faire
G
Avant

Pont
Em Am
Em Am
C Dsus4add9

J’ai bu et tout a tourné…
e ---------------------------------------------------
B ----------------------------------------3-p-0--
G ----------------------------------------0---------
D ---------------------------------------------------
A -------------------------------------5-------------
E ----------------------------------------------------
Note : p = "pull-off"

Em
Je me dis qu’elle m’indiffère
e ---------0---0----------------------
B ---------0---0------------1-p-0----
G ---------0---0----0----------------
D ---------2---2--------2------------
A ---------2---2----------------------
E ---0-----0---0----------------------

Em
Que n’importe quelle autre fille ferait l’affaire
Am
Mais j’ai peur qu’elle me plaise vraiment
e --------0---0----------------------
B --------1---1------------3-p-1----
G --------2---2----2--------2-------
D --------2---2--------2------------
A --0-----0---0----------------------
E ------------------------------------

Am
Il se passe quelque chose dedans….
(...)
C
Son œil gauche m’a fait trébucher
C
J’ai rien trouvé pour me rattraper
Dsus4add9
Et depuis je me demande
Dsus4add9
À quelle vitesse exactement
G
Je tombe.

Voilà, c'est tout pour cette chanson !

Pour "Assis là", je pense qu'il faudrait apporter les précisions suivantes :

- Capo 2ème case

Accords (la tonalité tient compte du capo)
F#m A E F#m
F#m A E Esus4
A/Asus2 E/Esus4/E
F#m C#7

F#m 022000 (0 = capo)
A 320033
E xx0232
Esus4 xx0233
Asus2 300033
C#7 x21202

Allez, maintenant à vous de jouer !!!
Revenir en haut
MamSelle_Bulle
Administrateur
Administrateur

Hors ligne

Inscrit le: 30 Avr 2006
Messages: 1 064
Localisation: Bourges (JM: Mais qu'es que tu as étais faire à Bourges? MOI: J'y suis née)

MessagePosté le: 08/08/2008 19:14:42 Sujet du message: 2ème Album : Assis là Répondre en citant

Merci sh00wee pour cette aide précieuse... Et bienvenue à toi sur le forum Wink
°°
Revenir en haut
Visiter le site web du posteur
sh00wee


Hors ligne

Inscrit le: 25 Juil 2008
Messages: 2
Localisation: Toulouse

MessagePosté le: 09/08/2008 10:34:00 Sujet du message: 2ème Album : Assis là Répondre en citant

Héhé merci bien !
Reste plus qu'à mettre à jour le premier post Laughing
Revenir en haut
MamSelle_Bulle
Administrateur
Administrateur

Hors ligne

Inscrit le: 30 Avr 2006
Messages: 1 064
Localisation: Bourges (JM: Mais qu'es que tu as étais faire à Bourges? MOI: J'y suis née)

MessagePosté le: 09/08/2008 12:16:39 Sujet du message: 2ème Album : Assis là Répondre en citant

Ah ça c'est le travail de notre modérateur des Tab's Very Happy Very Happy

Deck à toi de jouer...
Revenir en haut
Visiter le site web du posteur
Deck13
**
**

Hors ligne

Inscrit le: 26 Fév 2007
Messages: 266
Localisation: Orléans(45)

MessagePosté le: 09/08/2008 14:29:50 Sujet du message: 2ème Album : Assis là Répondre en citant

Oh yeah bienvenue à toi sh00wee ...

Je n'ai pas le temps de mettre à jour le poste maintenant mais ce soir en rentrant ça devrait le faire.

Merci à toi, et que vive la guitare ....

EDIT : Je ne l'ai toujours pas fait car je n'ai pas eu le temps de l'essayer ... en général je gratouille un peu les tabs avant des les inclure définitivement dans le post d'entête.
_________________


Revenir en haut
lordfenec


Hors ligne

Inscrit le: 29 Mar 2009
Messages: 2

MessagePosté le: 29/03/2009 13:06:25 Sujet du message: 2ème Album : Assis là Répondre en citant

bonjour tout le monde (nouveau venu sur le fofo)

M'étant apreçu à mon grand désespoir qu'il manquai les Tab d'une de mes chanson préférée j'ai demandé un coup de main a un ami aux oreilles bien plus aiguisées que les miennes.

Donc pour le remède il semblerait que ce soit aussi simple que ça :p


Cm
F
G#
Gm

donc voila , bonne gratouille Smile
Revenir en haut
Contenu Sponsorisé






MessagePosté le: 24/08/2017 03:20:12 Sujet du message: 2ème Album : Assis là

Revenir en haut
Montrer les messages depuis:
Poster un nouveau sujet Répondre au sujet Forum A Batlik Index du Forum -> DISCOGRAPHIE -> Tabs Toutes les heures sont au format GMT + 2 Heures
Page 1 sur 1


Sauter vers:  

Index | Panneau d’administration | Créer un forum | Forum gratuit d’entraide | Annuaire des forums gratuits | Signaler une violation | Conditions générales d'utilisation
Powered by phpBB © 2001, 2017 phpBB Group
Traduction par : phpBB-fr.com